ISO-10303-21;
HEADER;
FILE_DESCRIPTION (( 'STEP AP214' ),
    '1' );
FILE_NAME ('Ë«×¶¿¨Ì×CS8.STEP',
    '2018-02-28T04:50:24',
    ( '' ),
    ( '' ),
    'SwSTEP 2.0',
    'SolidWorks 2014',
    '' );
FILE_SCHEMA (( 'AUTOMOTIVE_DESIGN' ));
ENDSEC;

DATA;
#1 = SURFACE_STYLE_USAGE ( .BOTH. , #86 ) ;
#2 = STYLED_ITEM ( 'NONE', ( #238 ), #158 ) ;
#3 = STYLED_ITEM ( 'NONE', ( #111 ), #88 ) ;
#4 = MECHANICAL_DESIGN_GEOMETRIC_PRESENTATION_REPRESENTATION (  '', ( #112 ), #74 ) ;
#5 =( GEOMETRIC_REPRESENTATION_CONTEXT ( 3 ) GLOBAL_UNCERTAINTY_ASSIGNED_CONTEXT ( ( #152 ) ) GLOBAL_UNIT_ASSIGNED_CONTEXT ( ( #40, #226, #37 ) ) REPRESENTATION_CONTEXT ( 'NONE', 'WORKASPACE' ) );
#6 = DIRECTION ( 'NONE',  ( 0.0000000000000000000, 0.0000000000000000000, 1.000000000000000000 ) ) ;
#7 = FILL_AREA_STYLE ('',( #219 ) ) ;
#8 = MANIFOLD_SOLID_BREP ( 'Ðý×ª1', #93 ) ;
#9 = MECHANICAL_DESIGN_GEOMETRIC_PRESENTATION_REPRESENTATION (  '', ( #239 ), #223 ) ;
#10 = PLANE ( 'NONE',  #53 ) ;
#11 = AXIS2_PLACEMENT_3D ( 'NONE', #104, #43, #262 ) ;
#12 = FILL_AREA_STYLE ('',( #121 ) ) ;
#13 = CYLINDRICAL_SURFACE ( 'NONE', #183, 4.999999999999999100 ) ;
#14 =( GEOMETRIC_REPRESENTATION_CONTEXT ( 3 ) GLOBAL_UNCERTAINTY_ASSIGNED_CONTEXT ( ( #107 ) ) GLOBAL_UNIT_ASSIGNED_CONTEXT ( ( #29, #222, #159 ) ) REPRESENTATION_CONTEXT ( 'NONE', 'WORKASPACE' ) );
#15 = FILL_AREA_STYLE_COLOUR ( '', #25 ) ;
#16 = DIRECTION ( 'NONE',  ( -0.0000000000000000000, 0.0000000000000000000, 1.000000000000000000 ) ) ;
#17 = SURFACE_STYLE_USAGE ( .BOTH. , #207 ) ;
#18 = DIRECTION ( 'NONE',  ( 0.0000000000000000000, 0.0000000000000000000, 1.000000000000000000 ) ) ;
#19 = VERTEX_POINT ( 'NONE', #36 ) ;
#20 =( GEOMETRIC_REPRESENTATION_CONTEXT ( 3 ) GLOBAL_UNCERTAINTY_ASSIGNED_CONTEXT ( ( #143 ) ) GLOBAL_UNIT_ASSIGNED_CONTEXT ( ( #170, #127, #172 ) ) REPRESENTATION_CONTEXT ( 'NONE', 'WORKASPACE' ) );
#21 = FACE_OUTER_BOUND ( 'NONE', #254, .T. ) ;
#22 =( NAMED_UNIT ( * ) PLANE_ANGLE_UNIT ( ) SI_UNIT ( $, .RADIAN. ) );
#23 = ORIENTED_EDGE ( 'NONE', *, *, #251, .F. ) ;
#24 =( GEOMETRIC_REPRESENTATION_CONTEXT ( 3 ) GLOBAL_UNCERTAINTY_ASSIGNED_CONTEXT ( ( #235 ) ) GLOBAL_UNIT_ASSIGNED_CONTEXT ( ( #35, #242, #123 ) ) REPRESENTATION_CONTEXT ( 'NONE', 'WORKASPACE' ) );
#25 = COLOUR_RGB ( '',0.9647058823529411900, 0.7686274509803920900, 0.3725490196078431500 ) ;
#26 = UNCERTAINTY_MEASURE_WITH_UNIT (LENGTH_MEASURE( 1.000000000000000100E-005 ), #79, 'distance_accuracy_value', 'NONE');
#27 = AXIS2_PLACEMENT_3D ( 'NONE', #126, #82, #18 ) ;
#28 = ADVANCED_FACE ( 'NONE', ( #84, #67 ), #48, .T. ) ;
#29 =( LENGTH_UNIT ( ) NAMED_UNIT ( * ) SI_UNIT ( .MILLI., .METRE. ) );
#30 = PRESENTATION_STYLE_ASSIGNMENT (( #41 ) ) ;
#31 = SURFACE_SIDE_STYLE ('',( #203 ) ) ;
#32 = ORIENTED_EDGE ( 'NONE', *, *, #56, .F. ) ;
#33 = UNCERTAINTY_MEASURE_WITH_UNIT (LENGTH_MEASURE( 1.000000000000000100E-005 ), #244, 'distance_accuracy_value', 'NONE');
#34 = ORIENTED_EDGE ( 'NONE', *, *, #251, .T. ) ;
#35 =( LENGTH_UNIT ( ) NAMED_UNIT ( * ) SI_UNIT ( .MILLI., .METRE. ) );
#36 = CARTESIAN_POINT ( 'NONE',  ( 3.999999999999998200, 0.0000000000000000000, 4.049999999999999800 ) ) ;
#37 =( NAMED_UNIT ( * ) SI_UNIT ( $, .STERADIAN. ) SOLID_ANGLE_UNIT ( ) );
#38 = ORIENTED_EDGE ( 'NONE', *, *, #132, .T. ) ;
#39 = MECHANICAL_DESIGN_GEOMETRIC_PRESENTATION_REPRESENTATION (  '', ( #249 ), #20 ) ;
#40 =( LENGTH_UNIT ( ) NAMED_UNIT ( * ) SI_UNIT ( .MILLI., .METRE. ) );
#41 = SURFACE_STYLE_USAGE ( .BOTH. , #194 ) ;
#42 = VERTEX_POINT ( 'NONE', #80 ) ;
#43 = DIRECTION ( 'NONE',  ( -1.000000000000000000, -0.0000000000000000000, -0.0000000000000000000 ) ) ;
#44 = DIRECTION ( 'NONE',  ( 0.0000000000000000000, 0.0000000000000000000, -1.000000000000000000 ) ) ;
#45 = PRESENTATION_LAYER_ASSIGNMENT (  '', '', ( #249 ) ) ;
#46 = CIRCLE ( 'NONE', #76, 4.999999999999999100 ) ;
#47 = AXIS2_PLACEMENT_3D ( 'NONE', #95, #236, #160 ) ;
#48 = CONICAL_SURFACE ( 'NONE', #135, 4.150000000000001200, 0.5235987755982946000 ) ;
#49 = SURFACE_STYLE_FILL_AREA ( #66 ) ;
#50 = APPLICATION_PROTOCOL_DEFINITION ( 'draft international standard', 'automotive_design', 1998, #52 ) ;
#51 = SURFACE_STYLE_FILL_AREA ( #171 ) ;
#52 = APPLICATION_CONTEXT ( 'automotive_design' ) ;
#53 = AXIS2_PLACEMENT_3D ( 'NONE', #146, #257, #144 ) ;
#54 = PRESENTATION_STYLE_ASSIGNMENT (( #64 ) ) ;
#55 = PRESENTATION_STYLE_ASSIGNMENT (( #167 ) ) ;
#56 = EDGE_CURVE ( 'NONE', #264, #264, #214, .T. ) ;
#57 = DIRECTION ( 'NONE',  ( -1.000000000000000000, -0.0000000000000000000, -0.0000000000000000000 ) ) ;
#58 = AXIS2_PLACEMENT_3D ( 'NONE', #204, #59, #124 ) ;
#59 = DIRECTION ( 'NONE',  ( -1.000000000000000000, -0.0000000000000000000, -0.0000000000000000000 ) ) ;
#60 = AXIS2_PLACEMENT_3D ( 'NONE', #102, #62, #16 ) ;
#61 = ORIENTED_EDGE ( 'NONE', *, *, #136, .T. ) ;
#62 = DIRECTION ( 'NONE',  ( -1.000000000000000000, 0.0000000000000000000, -0.0000000000000000000 ) ) ;
#63 =( NAMED_UNIT ( * ) PLANE_ANGLE_UNIT ( ) SI_UNIT ( $, .RADIAN. ) );
#64 = SURFACE_STYLE_USAGE ( .BOTH. , #243 ) ;
#65 = DIRECTION ( 'NONE',  ( 0.0000000000000000000, 0.0000000000000000000, 1.000000000000000000 ) ) ;
#66 = FILL_AREA_STYLE ('',( #176 ) ) ;
#67 = FACE_BOUND ( 'NONE', #224, .T. ) ;
#68 = EDGE_LOOP ( 'NONE', ( #139 ) ) ;
#69 =( LENGTH_UNIT ( ) NAMED_UNIT ( * ) SI_UNIT ( .MILLI., .METRE. ) );
#70 = ORIENTED_EDGE ( 'NONE', *, *, #56, .T. ) ;
#71 = CIRCLE ( 'NONE', #58, 4.150000000000000400 ) ;
#72 = ADVANCED_FACE ( 'NONE', ( #106, #98 ), #10, .F. ) ;
#73 = PRODUCT_DEFINITION ( 'Î´Öª', '', #162, #118 ) ;
#74 =( GEOMETRIC_REPRESENTATION_CONTEXT ( 3 ) GLOBAL_UNCERTAINTY_ASSIGNED_CONTEXT ( ( #33 ) ) GLOBAL_UNIT_ASSIGNED_CONTEXT ( ( #244, #63, #81 ) ) REPRESENTATION_CONTEXT ( 'NONE', 'WORKASPACE' ) );
#75 = COLOUR_RGB ( '',0.9647058823529411900, 0.7686274509803920900, 0.3725490196078431500 ) ;
#76 = AXIS2_PLACEMENT_3D ( 'NONE', #178, #130, #65 ) ;
#77 = DIRECTION ( 'NONE',  ( 0.0000000000000000000, 0.0000000000000000000, 1.000000000000000000 ) ) ;
#78 = EDGE_CURVE ( 'NONE', #151, #151, #137, .T. ) ;
#79 =( LENGTH_UNIT ( ) NAMED_UNIT ( * ) SI_UNIT ( .MILLI., .METRE. ) );
#80 = CARTESIAN_POINT ( 'NONE',  ( -2.500000000000000400, 0.0000000000000000000, 4.150000000000000400 ) ) ;
#81 =( NAMED_UNIT ( * ) SI_UNIT ( $, .STERADIAN. ) SOLID_ANGLE_UNIT ( ) );
#82 = DIRECTION ( 'NONE',  ( -1.000000000000000000, -0.0000000000000000000, -0.0000000000000000000 ) ) ;
#83 =( GEOMETRIC_REPRESENTATION_CONTEXT ( 3 ) GLOBAL_UNCERTAINTY_ASSIGNED_CONTEXT ( ( #190 ) ) GLOBAL_UNIT_ASSIGNED_CONTEXT ( ( #227, #105, #191 ) ) REPRESENTATION_CONTEXT ( 'NONE', 'WORKASPACE' ) );
#84 = FACE_OUTER_BOUND ( 'NONE', #208, .T. ) ;
#85 = DIRECTION ( 'NONE',  ( 1.000000000000000000, 0.0000000000000000000, 0.0000000000000000000 ) ) ;
#86 = SURFACE_SIDE_STYLE ('',( #122 ) ) ;
#87 = PRESENTATION_LAYER_ASSIGNMENT (  '', '', ( #237 ) ) ;
#88 = ADVANCED_BREP_SHAPE_REPRESENTATION ( 'Ë«×¶¿¨Ì×CS8', ( #8, #47 ), #256 ) ;
#89 = VERTEX_POINT ( 'NONE', #225 ) ;
#90 = MECHANICAL_DESIGN_GEOMETRIC_PRESENTATION_REPRESENTATION (  '', ( #195 ), #218 ) ;
#91 = ADVANCED_FACE ( 'NONE', ( #250, #197 ), #220, .T. ) ;
#92 = SURFACE_STYLE_FILL_AREA ( #125 ) ;
#93 = CLOSED_SHELL ( 'NONE', ( #28, #158, #140, #72, #91, #221 ) ) ;
#94 = APPLICATION_CONTEXT ( 'automotive_design' ) ;
#95 = CARTESIAN_POINT ( 'NONE',  ( 0.0000000000000000000, 0.0000000000000000000, 0.0000000000000000000 ) ) ;
#96 = PRESENTATION_STYLE_ASSIGNMENT (( #1 ) ) ;
#97 = PRODUCT_RELATED_PRODUCT_CATEGORY ( 'part', '', ( #186 ) ) ;
#98 = FACE_OUTER_BOUND ( 'NONE', #196, .T. ) ;
#99 = SURFACE_STYLE_USAGE ( .BOTH. , #184 ) ;
#100 = CARTESIAN_POINT ( 'NONE',  ( 0.0000000000000000000, 0.0000000000000000000, 0.0000000000000000000 ) ) ;
#101 = STYLED_ITEM ( 'NONE', ( #55 ), #72 ) ;
#102 = CARTESIAN_POINT ( 'NONE',  ( 3.999999999999998200, 4.150000000000001200, 0.0000000000000000000 ) ) ;
#103 = CARTESIAN_POINT ( 'NONE',  ( -2.500000000000000900, 0.0000000000000000000, 4.049999999999999800 ) ) ;
#104 = CARTESIAN_POINT ( 'NONE',  ( 0.0000000000000000000, 0.0000000000000000000, 0.0000000000000000000 ) ) ;
#105 =( NAMED_UNIT ( * ) PLANE_ANGLE_UNIT ( ) SI_UNIT ( $, .RADIAN. ) );
#106 = FACE_BOUND ( 'NONE', #248, .T. ) ;
#107 = UNCERTAINTY_MEASURE_WITH_UNIT (LENGTH_MEASURE( 1.000000000000000100E-005 ), #29, 'distance_accuracy_value', 'NONE');
#108 = ORIENTED_EDGE ( 'NONE', *, *, #78, .F. ) ;
#109 = FILL_AREA_STYLE_COLOUR ( '', #215 ) ;
#110 = FACE_OUTER_BOUND ( 'NONE', #157, .T. ) ;
#111 = PRESENTATION_STYLE_ASSIGNMENT (( #116 ) ) ;
#112 = STYLED_ITEM ( 'NONE', ( #150 ), #8 ) ;
#113 = COLOUR_RGB ( '',0.9647058823529411900, 0.7686274509803920900, 0.3725490196078431500 ) ;
#114 = ORIENTED_EDGE ( 'NONE', *, *, #182, .T. ) ;
#115 = PRODUCT_CONTEXT ( 'NONE', #52, 'mechanical' ) ;
#116 = SURFACE_STYLE_USAGE ( .BOTH. , #161 ) ;
#117 = PRESENTATION_LAYER_ASSIGNMENT (  '', '', ( #3 ) ) ;
#118 = PRODUCT_DEFINITION_CONTEXT ( 'detailed design', #94, 'design' ) ;
#119 = SURFACE_STYLE_FILL_AREA ( #245 ) ;
#120 = AXIS2_PLACEMENT_3D ( 'NONE', #234, #263, #213 ) ;
#121 = FILL_AREA_STYLE_COLOUR ( '', #75 ) ;
#122 = SURFACE_STYLE_FILL_AREA ( #247 ) ;
#123 =( NAMED_UNIT ( * ) SI_UNIT ( $, .STERADIAN. ) SOLID_ANGLE_UNIT ( ) );
#124 = DIRECTION ( 'NONE',  ( 0.0000000000000000000, 0.0000000000000000000, 1.000000000000000000 ) ) ;
#125 = FILL_AREA_STYLE ('',( #15 ) ) ;
#126 = CARTESIAN_POINT ( 'NONE',  ( 3.999999999999998200, 0.0000000000000000000, 0.0000000000000000000 ) ) ;
#127 =( NAMED_UNIT ( * ) PLANE_ANGLE_UNIT ( ) SI_UNIT ( $, .RADIAN. ) );
#128 = MECHANICAL_DESIGN_GEOMETRIC_PRESENTATION_REPRESENTATION (  '', ( #3 ), #14 ) ;
#129 =( NAMED_UNIT ( * ) PLANE_ANGLE_UNIT ( ) SI_UNIT ( $, .RADIAN. ) );
#130 = DIRECTION ( 'NONE',  ( -1.000000000000000000, -0.0000000000000000000, -0.0000000000000000000 ) ) ;
#131 = DIRECTION ( 'NONE',  ( -1.000000000000000000, -0.0000000000000000000, -0.0000000000000000000 ) ) ;
#132 = EDGE_CURVE ( 'NONE', #240, #240, #46, .T. ) ;
#133 = ORIENTED_EDGE ( 'NONE', *, *, #136, .F. ) ;
#134 = PRODUCT_DEFINITION_SHAPE ( 'NONE', 'NONE',  #73 ) ;
#135 = AXIS2_PLACEMENT_3D ( 'NONE', #149, #173, #6 ) ;
#136 = EDGE_CURVE ( 'NONE', #19, #19, #255, .T. ) ;
#137 = CIRCLE ( 'NONE', #120, 4.999999999999999100 ) ;
#138 = AXIS2_PLACEMENT_3D ( 'NONE', #258, #57, #77 ) ;
#139 = ORIENTED_EDGE ( 'NONE', *, *, #182, .F. ) ;
#140 = ADVANCED_FACE ( 'NONE', ( #21, #181 ), #230, .F. ) ;
#141 = COLOUR_RGB ( '',0.9647058823529411900, 0.7686274509803920900, 0.3725490196078431500 ) ;
#142 = SURFACE_STYLE_FILL_AREA ( #7 ) ;
#143 = UNCERTAINTY_MEASURE_WITH_UNIT (LENGTH_MEASURE( 1.000000000000000100E-005 ), #170, 'distance_accuracy_value', 'NONE');
#144 = DIRECTION ( 'NONE',  ( 0.0000000000000000000, 0.0000000000000000000, -1.000000000000000000 ) ) ;
#145 = EDGE_LOOP ( 'NONE', ( #61 ) ) ;
#146 = CARTESIAN_POINT ( 'NONE',  ( -2.500000000000000400, 4.150000000000000400, 0.0000000000000000000 ) ) ;
#147 = MECHANICAL_DESIGN_GEOMETRIC_PRESENTATION_REPRESENTATION (  '', ( #2 ), #83 ) ;
#148 = FILL_AREA_STYLE_COLOUR ( '', #233 ) ;
#149 = CARTESIAN_POINT ( 'NONE',  ( 3.999999999999998200, 0.0000000000000000000, 0.0000000000000000000 ) ) ;
#150 = PRESENTATION_STYLE_ASSIGNMENT (( #260 ) ) ;
#151 = VERTEX_POINT ( 'NONE', #187 ) ;
#152 = UNCERTAINTY_MEASURE_WITH_UNIT (LENGTH_MEASURE( 1.000000000000000100E-005 ), #40, 'distance_accuracy_value', 'NONE');
#153 =( NAMED_UNIT ( * ) SI_UNIT ( $, .STERADIAN. ) SOLID_ANGLE_UNIT ( ) );
#154 = CARTESIAN_POINT ( 'NONE',  ( -1.027756813566464800, 0.0000000000000000000, 0.0000000000000000000 ) ) ;
#155 = MECHANICAL_DESIGN_GEOMETRIC_PRESENTATION_REPRESENTATION (  '', ( #237 ), #5 ) ;
#156 =( NAMED_UNIT ( * ) SI_UNIT ( $, .STERADIAN. ) SOLID_ANGLE_UNIT ( ) );
#157 = EDGE_LOOP ( 'NONE', ( #216 ) ) ;
#158 = ADVANCED_FACE ( 'NONE', ( #179, #188 ), #261, .F. ) ;
#159 =( NAMED_UNIT ( * ) SI_UNIT ( $, .STERADIAN. ) SOLID_ANGLE_UNIT ( ) );
#160 = DIRECTION ( 'NONE',  ( 1.000000000000000000, 0.0000000000000000000, 0.0000000000000000000 ) ) ;
#161 = SURFACE_SIDE_STYLE ('',( #142 ) ) ;
#162 = PRODUCT_DEFINITION_FORMATION_WITH_SPECIFIED_SOURCE ( 'ÈÎºÎ', '', #186, .NOT_KNOWN. ) ;
#163 = PRESENTATION_LAYER_ASSIGNMENT (  '', '', ( #112 ) ) ;
#164 = EDGE_LOOP ( 'NONE', ( #177 ) ) ;
#165 = PRESENTATION_LAYER_ASSIGNMENT (  '', '', ( #101 ) ) ;
#166 = EDGE_LOOP ( 'NONE', ( #70 ) ) ;
#167 = SURFACE_STYLE_USAGE ( .BOTH. , #31 ) ;
#168 = FACE_OUTER_BOUND ( 'NONE', #164, .T. ) ;
#169 = COLOUR_RGB ( '',0.7529411764705882200, 0.7529411764705882200, 0.7529411764705882200 ) ;
#170 =( LENGTH_UNIT ( ) NAMED_UNIT ( * ) SI_UNIT ( .MILLI., .METRE. ) );
#171 = FILL_AREA_STYLE ('',( #259 ) ) ;
#172 =( NAMED_UNIT ( * ) SI_UNIT ( $, .STERADIAN. ) SOLID_ANGLE_UNIT ( ) );
#173 = DIRECTION ( 'NONE',  ( -1.000000000000000000, -0.0000000000000000000, -0.0000000000000000000 ) ) ;
#174 = CIRCLE ( 'NONE', #27, 4.150000000000001200 ) ;
#175 = CARTESIAN_POINT ( 'NONE',  ( -1.027756813566464800, 0.0000000000000000000, 4.999999999999999100 ) ) ;
#176 = FILL_AREA_STYLE_COLOUR ( '', #209 ) ;
#177 = ORIENTED_EDGE ( 'NONE', *, *, #132, .F. ) ;
#178 = CARTESIAN_POINT ( 'NONE',  ( -1.027756813566464800, 0.0000000000000000000, 0.0000000000000000000 ) ) ;
#179 = FACE_OUTER_BOUND ( 'NONE', #68, .T. ) ;
#180 = FILL_AREA_STYLE_COLOUR ( '', #141 ) ;
#181 = FACE_OUTER_BOUND ( 'NONE', #166, .T. ) ;
#182 = EDGE_CURVE ( 'NONE', #89, #89, #174, .T. ) ;
#183 = AXIS2_PLACEMENT_3D ( 'NONE', #100, #210, #206 ) ;
#184 = SURFACE_SIDE_STYLE ('',( #231 ) ) ;
#185 = EDGE_LOOP ( 'NONE', ( #23 ) ) ;
#186 = PRODUCT ( 'Ë«×¶¿¨Ì×CS8', 'Ë«×¶¿¨Ì×CS8', '', ( #115 ) ) ;
#187 = CARTESIAN_POINT ( 'NONE',  ( 2.527756813566441000, 0.0000000000000000000, 4.999999999999999100 ) ) ;
#188 = FACE_BOUND ( 'NONE', #145, .T. ) ;
#189 = SURFACE_SIDE_STYLE ('',( #119 ) ) ;
#190 = UNCERTAINTY_MEASURE_WITH_UNIT (LENGTH_MEASURE( 1.000000000000000100E-005 ), #227, 'distance_accuracy_value', 'NONE');
#191 =( NAMED_UNIT ( * ) SI_UNIT ( $, .STERADIAN. ) SOLID_ANGLE_UNIT ( ) );
#192 =( NAMED_UNIT ( * ) SI_UNIT ( $, .STERADIAN. ) SOLID_ANGLE_UNIT ( ) );
#193 =( NAMED_UNIT ( * ) PLANE_ANGLE_UNIT ( ) SI_UNIT ( $, .RADIAN. ) );
#194 = SURFACE_SIDE_STYLE ('',( #49 ) ) ;
#195 = STYLED_ITEM ( 'NONE', ( #30 ), #91 ) ;
#196 = EDGE_LOOP ( 'NONE', ( #34 ) ) ;
#197 = FACE_OUTER_BOUND ( 'NONE', #202, .T. ) ;
#198 = PRESENTATION_LAYER_ASSIGNMENT (  '', '', ( #2 ) ) ;
#199 = APPLICATION_PROTOCOL_DEFINITION ( 'draft international standard', 'automotive_design', 1998, #94 ) ;
#200 = PRESENTATION_LAYER_ASSIGNMENT (  '', '', ( #195 ) ) ;
#201 = MECHANICAL_DESIGN_GEOMETRIC_PRESENTATION_REPRESENTATION (  '', ( #101 ), #24 ) ;
#202 = EDGE_LOOP ( 'NONE', ( #38 ) ) ;
#203 = SURFACE_STYLE_FILL_AREA ( #12 ) ;
#204 = CARTESIAN_POINT ( 'NONE',  ( -2.500000000000000400, 0.0000000000000000000, 0.0000000000000000000 ) ) ;
#205 = UNCERTAINTY_MEASURE_WITH_UNIT (LENGTH_MEASURE( 1.000000000000000100E-005 ), #246, 'distance_accuracy_value', 'NONE');
#206 = DIRECTION ( 'NONE',  ( 0.0000000000000000000, 0.0000000000000000000, 1.000000000000000000 ) ) ;
#207 = SURFACE_SIDE_STYLE ('',( #92 ) ) ;
#208 = EDGE_LOOP ( 'NONE', ( #108 ) ) ;
#209 = COLOUR_RGB ( '',0.9647058823529411900, 0.7686274509803920900, 0.3725490196078431500 ) ;
#210 = DIRECTION ( 'NONE',  ( -1.000000000000000000, -0.0000000000000000000, -0.0000000000000000000 ) ) ;
#211 = SHAPE_DEFINITION_REPRESENTATION ( #134, #88 ) ;
#212 = DIRECTION ( 'NONE',  ( 0.0000000000000000000, 0.0000000000000000000, 1.000000000000000000 ) ) ;
#213 = DIRECTION ( 'NONE',  ( 0.0000000000000000000, 0.0000000000000000000, 1.000000000000000000 ) ) ;
#214 = CIRCLE ( 'NONE', #138, 4.049999999999999800 ) ;
#215 = COLOUR_RGB ( '',0.9647058823529411900, 0.7686274509803920900, 0.3725490196078431500 ) ;
#216 = ORIENTED_EDGE ( 'NONE', *, *, #78, .T. ) ;
#217 = FILL_AREA_STYLE ('',( #180 ) ) ;
#218 =( GEOMETRIC_REPRESENTATION_CONTEXT ( 3 ) GLOBAL_UNCERTAINTY_ASSIGNED_CONTEXT ( ( #232 ) ) GLOBAL_UNIT_ASSIGNED_CONTEXT ( ( #69, #22, #192 ) ) REPRESENTATION_CONTEXT ( 'NONE', 'WORKASPACE' ) );
#219 = FILL_AREA_STYLE_COLOUR ( '', #169 ) ;
#220 = CONICAL_SURFACE ( 'NONE', #229, 4.999999999999999100, 0.5235987755983013700 ) ;
#221 = ADVANCED_FACE ( 'NONE', ( #168, #110 ), #13, .T. ) ;
#222 =( NAMED_UNIT ( * ) PLANE_ANGLE_UNIT ( ) SI_UNIT ( $, .RADIAN. ) );
#223 =( GEOMETRIC_REPRESENTATION_CONTEXT ( 3 ) GLOBAL_UNCERTAINTY_ASSIGNED_CONTEXT ( ( #205 ) ) GLOBAL_UNIT_ASSIGNED_CONTEXT ( ( #246, #129, #156 ) ) REPRESENTATION_CONTEXT ( 'NONE', 'WORKASPACE' ) );
#224 = EDGE_LOOP ( 'NONE', ( #114 ) ) ;
#225 = CARTESIAN_POINT ( 'NONE',  ( 3.999999999999998200, 0.0000000000000000000, 4.150000000000001200 ) ) ;
#226 =( NAMED_UNIT ( * ) PLANE_ANGLE_UNIT ( ) SI_UNIT ( $, .RADIAN. ) );
#227 =( LENGTH_UNIT ( ) NAMED_UNIT ( * ) SI_UNIT ( .MILLI., .METRE. ) );
#228 = CARTESIAN_POINT ( 'NONE',  ( 3.999999999999998200, 0.0000000000000000000, 0.0000000000000000000 ) ) ;
#229 = AXIS2_PLACEMENT_3D ( 'NONE', #154, #85, #44 ) ;
#230 = CYLINDRICAL_SURFACE ( 'NONE', #11, 4.049999999999999800 ) ;
#231 = SURFACE_STYLE_FILL_AREA ( #217 ) ;
#232 = UNCERTAINTY_MEASURE_WITH_UNIT (LENGTH_MEASURE( 1.000000000000000100E-005 ), #69, 'distance_accuracy_value', 'NONE');
#233 = COLOUR_RGB ( '',0.7529411764705882200, 0.7529411764705882200, 0.7529411764705882200 ) ;
#234 = CARTESIAN_POINT ( 'NONE',  ( 2.527756813566441000, 0.0000000000000000000, 0.0000000000000000000 ) ) ;
#235 = UNCERTAINTY_MEASURE_WITH_UNIT (LENGTH_MEASURE( 1.000000000000000100E-005 ), #35, 'distance_accuracy_value', 'NONE');
#236 = DIRECTION ( 'NONE',  ( 0.0000000000000000000, 0.0000000000000000000, 1.000000000000000000 ) ) ;
#237 = STYLED_ITEM ( 'NONE', ( #252 ), #28 ) ;
#238 = PRESENTATION_STYLE_ASSIGNMENT (( #99 ) ) ;
#239 = STYLED_ITEM ( 'NONE', ( #96 ), #140 ) ;
#240 = VERTEX_POINT ( 'NONE', #175 ) ;
#241 = AXIS2_PLACEMENT_3D ( 'NONE', #228, #131, #212 ) ;
#242 =( NAMED_UNIT ( * ) PLANE_ANGLE_UNIT ( ) SI_UNIT ( $, .RADIAN. ) );
#243 = SURFACE_SIDE_STYLE ('',( #51 ) ) ;
#244 =( LENGTH_UNIT ( ) NAMED_UNIT ( * ) SI_UNIT ( .MILLI., .METRE. ) );
#245 = FILL_AREA_STYLE ('',( #148 ) ) ;
#246 =( LENGTH_UNIT ( ) NAMED_UNIT ( * ) SI_UNIT ( .MILLI., .METRE. ) );
#247 = FILL_AREA_STYLE ('',( #109 ) ) ;
#248 = EDGE_LOOP ( 'NONE', ( #32 ) ) ;
#249 = STYLED_ITEM ( 'NONE', ( #54 ), #221 ) ;
#250 = FACE_BOUND ( 'NONE', #185, .T. ) ;
#251 = EDGE_CURVE ( 'NONE', #42, #42, #71, .T. ) ;
#252 = PRESENTATION_STYLE_ASSIGNMENT (( #17 ) ) ;
#253 = PRESENTATION_LAYER_ASSIGNMENT (  '', '', ( #239 ) ) ;
#254 = EDGE_LOOP ( 'NONE', ( #133 ) ) ;
#255 = CIRCLE ( 'NONE', #241, 4.049999999999999800 ) ;
#256 =( GEOMETRIC_REPRESENTATION_CONTEXT ( 3 ) GLOBAL_UNCERTAINTY_ASSIGNED_CONTEXT ( ( #26 ) ) GLOBAL_UNIT_ASSIGNED_CONTEXT ( ( #79, #193, #153 ) ) REPRESENTATION_CONTEXT ( 'NONE', 'WORKASPACE' ) );
#257 = DIRECTION ( 'NONE',  ( 1.000000000000000000, 0.0000000000000000000, 0.0000000000000000000 ) ) ;
#258 = CARTESIAN_POINT ( 'NONE',  ( -2.500000000000000900, 0.0000000000000000000, 0.0000000000000000000 ) ) ;
#259 = FILL_AREA_STYLE_COLOUR ( '', #113 ) ;
#260 = SURFACE_STYLE_USAGE ( .BOTH. , #189 ) ;
#261 = PLANE ( 'NONE',  #60 ) ;
#262 = DIRECTION ( 'NONE',  ( 0.0000000000000000000, 0.0000000000000000000, 1.000000000000000000 ) ) ;
#263 = DIRECTION ( 'NONE',  ( -1.000000000000000000, -0.0000000000000000000, -0.0000000000000000000 ) ) ;
#264 = VERTEX_POINT ( 'NONE', #103 ) ;
ENDSEC;
END-ISO-10303-21;
