ISO-10303-21;
HEADER;
FILE_DESCRIPTION (( 'STEP AP214' ),
    '1' );
FILE_NAME ('Ë«×¶¿¨Ì×CB6.STEP',
    '2018-12-18T01:03:07',
    ( '' ),
    ( '' ),
    'SwSTEP 2.0',
    'SolidWorks 2014',
    '' );
FILE_SCHEMA (( 'AUTOMOTIVE_DESIGN' ));
ENDSEC;

DATA;
#1 = SURFACE_STYLE_USAGE ( .BOTH. , #64 ) ;
#2 =( NAMED_UNIT ( * ) PLANE_ANGLE_UNIT ( ) SI_UNIT ( $, .RADIAN. ) );
#3 = PRESENTATION_LAYER_ASSIGNMENT (  '', '', ( #254 ) ) ;
#4 = CARTESIAN_POINT ( 'NONE',  ( -2.500000000000000400, 3.149999999999999900, 0.0000000000000000000 ) ) ;
#5 = FACE_OUTER_BOUND ( 'NONE', #208, .T. ) ;
#6 = CLOSED_SHELL ( 'NONE', ( #97, #35, #132, #14, #253, #166 ) ) ;
#7 = FILL_AREA_STYLE_COLOUR ( '', #167 ) ;
#8 =( NAMED_UNIT ( * ) PLANE_ANGLE_UNIT ( ) SI_UNIT ( $, .RADIAN. ) );
#9 = AXIS2_PLACEMENT_3D ( 'NONE', #80, #84, #193 ) ;
#10 =( GEOMETRIC_REPRESENTATION_CONTEXT ( 3 ) GLOBAL_UNCERTAINTY_ASSIGNED_CONTEXT ( ( #74 ) ) GLOBAL_UNIT_ASSIGNED_CONTEXT ( ( #135, #241, #171 ) ) REPRESENTATION_CONTEXT ( 'NONE', 'WORKASPACE' ) );
#11 = SURFACE_STYLE_USAGE ( .BOTH. , #229 ) ;
#12 = MECHANICAL_DESIGN_GEOMETRIC_PRESENTATION_REPRESENTATION (  '', ( #86 ), #10 ) ;
#13 = EDGE_LOOP ( 'NONE', ( #65 ) ) ;
#14 = ADVANCED_FACE ( 'NONE', ( #191, #230 ), #139, .F. ) ;
#15 =( GEOMETRIC_REPRESENTATION_CONTEXT ( 3 ) GLOBAL_UNCERTAINTY_ASSIGNED_CONTEXT ( ( #155 ) ) GLOBAL_UNIT_ASSIGNED_CONTEXT ( ( #216, #83, #42 ) ) REPRESENTATION_CONTEXT ( 'NONE', 'WORKASPACE' ) );
#16 = CARTESIAN_POINT ( 'NONE',  ( -2.500000000000000900, 0.0000000000000000000, 0.0000000000000000000 ) ) ;
#17 = DIRECTION ( 'NONE',  ( 1.000000000000000000, 0.0000000000000000000, 0.0000000000000000000 ) ) ;
#18 =( LENGTH_UNIT ( ) NAMED_UNIT ( * ) SI_UNIT ( .MILLI., .METRE. ) );
#19 =( NAMED_UNIT ( * ) SI_UNIT ( $, .STERADIAN. ) SOLID_ANGLE_UNIT ( ) );
#20 = FACE_OUTER_BOUND ( 'NONE', #122, .T. ) ;
#21 = AXIS2_PLACEMENT_3D ( 'NONE', #101, #240, #85 ) ;
#22 = SURFACE_SIDE_STYLE ('',( #146 ) ) ;
#23 = VERTEX_POINT ( 'NONE', #120 ) ;
#24 = PRODUCT_CONTEXT ( 'NONE', #195, 'mechanical' ) ;
#25 = CYLINDRICAL_SURFACE ( 'NONE', #163, 4.000000000000000000 ) ;
#26 = FILL_AREA_STYLE_COLOUR ( '', #168 ) ;
#27 = ORIENTED_EDGE ( 'NONE', *, *, #214, .F. ) ;
#28 = MECHANICAL_DESIGN_GEOMETRIC_PRESENTATION_REPRESENTATION (  '', ( #242 ), #15 ) ;
#29 = SURFACE_SIDE_STYLE ('',( #70 ) ) ;
#30 = FILL_AREA_STYLE_COLOUR ( '', #169 ) ;
#31 = FILL_AREA_STYLE ('',( #30 ) ) ;
#32 = FACE_BOUND ( 'NONE', #162, .T. ) ;
#33 = MECHANICAL_DESIGN_GEOMETRIC_PRESENTATION_REPRESENTATION (  '', ( #232 ), #180 ) ;
#34 = COLOUR_RGB ( '',0.9647058823529411900, 0.7686274509803920900, 0.3725490196078431500 ) ;
#35 = ADVANCED_FACE ( 'NONE', ( #183, #76 ), #156, .F. ) ;
#36 = UNCERTAINTY_MEASURE_WITH_UNIT (LENGTH_MEASURE( 1.000000000000000100E-005 ), #179, 'distance_accuracy_value', 'NONE');
#37 = PRODUCT_DEFINITION_CONTEXT ( 'detailed design', #57, 'design' ) ;
#38 = CARTESIAN_POINT ( 'NONE',  ( 3.499999999999999100, 0.0000000000000000000, 3.049999999999999800 ) ) ;
#39 = DIRECTION ( 'NONE',  ( -1.000000000000000000, -0.0000000000000000000, -0.0000000000000000000 ) ) ;
#40 = MECHANICAL_DESIGN_GEOMETRIC_PRESENTATION_REPRESENTATION (  '', ( #219 ), #53 ) ;
#41 = SURFACE_STYLE_USAGE ( .BOTH. , #22 ) ;
#42 =( NAMED_UNIT ( * ) SI_UNIT ( $, .STERADIAN. ) SOLID_ANGLE_UNIT ( ) );
#43 = DIRECTION ( 'NONE',  ( -1.000000000000000000, -0.0000000000000000000, -0.0000000000000000000 ) ) ;
#44 = SURFACE_STYLE_USAGE ( .BOTH. , #47 ) ;
#45 = DIRECTION ( 'NONE',  ( -1.000000000000000000, 0.0000000000000000000, -0.0000000000000000000 ) ) ;
#46 = EDGE_LOOP ( 'NONE', ( #79 ) ) ;
#47 = SURFACE_SIDE_STYLE ('',( #199 ) ) ;
#48 = VERTEX_POINT ( 'NONE', #119 ) ;
#49 = UNCERTAINTY_MEASURE_WITH_UNIT (LENGTH_MEASURE( 1.000000000000000100E-005 ), #182, 'distance_accuracy_value', 'NONE');
#50 =( GEOMETRIC_REPRESENTATION_CONTEXT ( 3 ) GLOBAL_UNCERTAINTY_ASSIGNED_CONTEXT ( ( #117 ) ) GLOBAL_UNIT_ASSIGNED_CONTEXT ( ( #18, #151, #149 ) ) REPRESENTATION_CONTEXT ( 'NONE', 'WORKASPACE' ) );
#51 = FILL_AREA_STYLE_COLOUR ( '', #158 ) ;
#52 = PRESENTATION_LAYER_ASSIGNMENT (  '', '', ( #235 ) ) ;
#53 =( GEOMETRIC_REPRESENTATION_CONTEXT ( 3 ) GLOBAL_UNCERTAINTY_ASSIGNED_CONTEXT ( ( #218 ) ) GLOBAL_UNIT_ASSIGNED_CONTEXT ( ( #107, #71, #144 ) ) REPRESENTATION_CONTEXT ( 'NONE', 'WORKASPACE' ) );
#54 = ORIENTED_EDGE ( 'NONE', *, *, #175, .F. ) ;
#55 = PRODUCT_DEFINITION ( 'Î´Öª', '', #124, #37 ) ;
#56 = DIRECTION ( 'NONE',  ( 0.0000000000000000000, 0.0000000000000000000, 1.000000000000000000 ) ) ;
#57 = APPLICATION_CONTEXT ( 'automotive_design' ) ;
#58 = ORIENTED_EDGE ( 'NONE', *, *, #248, .T. ) ;
#59 = DIRECTION ( 'NONE',  ( -1.000000000000000000, -0.0000000000000000000, -0.0000000000000000000 ) ) ;
#60 = SURFACE_SIDE_STYLE ('',( #106 ) ) ;
#61 = CARTESIAN_POINT ( 'NONE',  ( -1.027756813566465600, 0.0000000000000000000, 4.000000000000000000 ) ) ;
#62 = PRESENTATION_LAYER_ASSIGNMENT (  '', '', ( #232 ) ) ;
#63 = EDGE_LOOP ( 'NONE', ( #222 ) ) ;
#64 = SURFACE_SIDE_STYLE ('',( #148 ) ) ;
#65 = ORIENTED_EDGE ( 'NONE', *, *, #143, .F. ) ;
#66 = SURFACE_STYLE_USAGE ( .BOTH. , #244 ) ;
#67 = CONICAL_SURFACE ( 'NONE', #9, 4.000000000000000000, 0.5235987755983019200 ) ;
#68 = AXIS2_PLACEMENT_3D ( 'NONE', #126, #72, #250 ) ;
#69 = CARTESIAN_POINT ( 'NONE',  ( 0.0000000000000000000, 0.0000000000000000000, 0.0000000000000000000 ) ) ;
#70 = SURFACE_STYLE_FILL_AREA ( #207 ) ;
#71 =( NAMED_UNIT ( * ) PLANE_ANGLE_UNIT ( ) SI_UNIT ( $, .RADIAN. ) );
#72 = DIRECTION ( 'NONE',  ( -1.000000000000000000, -0.0000000000000000000, -0.0000000000000000000 ) ) ;
#73 = AXIS2_PLACEMENT_3D ( 'NONE', #184, #45, #87 ) ;
#74 = UNCERTAINTY_MEASURE_WITH_UNIT (LENGTH_MEASURE( 1.000000000000000100E-005 ), #135, 'distance_accuracy_value', 'NONE');
#75 = FACE_OUTER_BOUND ( 'NONE', #215, .T. ) ;
#76 = FACE_BOUND ( 'NONE', #46, .T. ) ;
#77 = VERTEX_POINT ( 'NONE', #38 ) ;
#78 = STYLED_ITEM ( 'NONE', ( #255 ), #181 ) ;
#79 = ORIENTED_EDGE ( 'NONE', *, *, #221, .T. ) ;
#80 = CARTESIAN_POINT ( 'NONE',  ( -1.027756813566465600, 0.0000000000000000000, 0.0000000000000000000 ) ) ;
#81 = AXIS2_PLACEMENT_3D ( 'NONE', #138, #56, #17 ) ;
#82 = PRODUCT_DEFINITION_SHAPE ( 'NONE', 'NONE',  #55 ) ;
#83 =( NAMED_UNIT ( * ) PLANE_ANGLE_UNIT ( ) SI_UNIT ( $, .RADIAN. ) );
#84 = DIRECTION ( 'NONE',  ( 1.000000000000000000, 0.0000000000000000000, 0.0000000000000000000 ) ) ;
#85 = DIRECTION ( 'NONE',  ( 0.0000000000000000000, 0.0000000000000000000, 1.000000000000000000 ) ) ;
#86 = STYLED_ITEM ( 'NONE', ( #264 ), #200 ) ;
#87 = DIRECTION ( 'NONE',  ( -0.0000000000000000000, 0.0000000000000000000, 1.000000000000000000 ) ) ;
#88 = CARTESIAN_POINT ( 'NONE',  ( 3.499999999999999100, 0.0000000000000000000, 0.0000000000000000000 ) ) ;
#89 = CARTESIAN_POINT ( 'NONE',  ( -1.027756813566465600, 0.0000000000000000000, 0.0000000000000000000 ) ) ;
#90 = SURFACE_STYLE_USAGE ( .BOTH. , #29 ) ;
#91 = FILL_AREA_STYLE_COLOUR ( '', #112 ) ;
#92 = PRESENTATION_LAYER_ASSIGNMENT (  '', '', ( #78 ) ) ;
#93 = UNCERTAINTY_MEASURE_WITH_UNIT (LENGTH_MEASURE( 1.000000000000000100E-005 ), #246, 'distance_accuracy_value', 'NONE');
#94 = COLOUR_RGB ( '',0.9647058823529411900, 0.7686274509803920900, 0.3725490196078431500 ) ;
#95 = VERTEX_POINT ( 'NONE', #61 ) ;
#96 = SURFACE_STYLE_FILL_AREA ( #192 ) ;
#97 = ADVANCED_FACE ( 'NONE', ( #20, #243 ), #212, .T. ) ;
#98 = PRESENTATION_STYLE_ASSIGNMENT (( #44 ) ) ;
#99 = MECHANICAL_DESIGN_GEOMETRIC_PRESENTATION_REPRESENTATION (  '', ( #235 ), #226 ) ;
#100 = DIRECTION ( 'NONE',  ( 0.0000000000000000000, 0.0000000000000000000, 1.000000000000000000 ) ) ;
#101 = CARTESIAN_POINT ( 'NONE',  ( 2.027756813566442300, 0.0000000000000000000, 0.0000000000000000000 ) ) ;
#102 = FILL_AREA_STYLE ('',( #197 ) ) ;
#103 =( NAMED_UNIT ( * ) PLANE_ANGLE_UNIT ( ) SI_UNIT ( $, .RADIAN. ) );
#104 =( GEOMETRIC_REPRESENTATION_CONTEXT ( 3 ) GLOBAL_UNCERTAINTY_ASSIGNED_CONTEXT ( ( #258 ) ) GLOBAL_UNIT_ASSIGNED_CONTEXT ( ( #213, #103, #19 ) ) REPRESENTATION_CONTEXT ( 'NONE', 'WORKASPACE' ) );
#105 = FILL_AREA_STYLE ('',( #26 ) ) ;
#106 = SURFACE_STYLE_FILL_AREA ( #102 ) ;
#107 =( LENGTH_UNIT ( ) NAMED_UNIT ( * ) SI_UNIT ( .MILLI., .METRE. ) );
#108 =( NAMED_UNIT ( * ) PLANE_ANGLE_UNIT ( ) SI_UNIT ( $, .RADIAN. ) );
#109 = CARTESIAN_POINT ( 'NONE',  ( 0.0000000000000000000, 0.0000000000000000000, 0.0000000000000000000 ) ) ;
#110 = ORIENTED_EDGE ( 'NONE', *, *, #248, .F. ) ;
#111 = PRESENTATION_LAYER_ASSIGNMENT (  '', '', ( #86 ) ) ;
#112 = COLOUR_RGB ( '',0.9647058823529411900, 0.7686274509803920900, 0.3725490196078431500 ) ;
#113 = EDGE_LOOP ( 'NONE', ( #27 ) ) ;
#114 = ORIENTED_EDGE ( 'NONE', *, *, #214, .T. ) ;
#115 = MECHANICAL_DESIGN_GEOMETRIC_PRESENTATION_REPRESENTATION (  '', ( #78 ), #104 ) ;
#116 = CIRCLE ( 'NONE', #68, 3.149999999999999900 ) ;
#117 = UNCERTAINTY_MEASURE_WITH_UNIT (LENGTH_MEASURE( 1.000000000000000100E-005 ), #18, 'distance_accuracy_value', 'NONE');
#118 = ORIENTED_EDGE ( 'NONE', *, *, #143, .T. ) ;
#119 = CARTESIAN_POINT ( 'NONE',  ( -2.500000000000000400, 0.0000000000000000000, 3.049999999999999800 ) ) ;
#120 = CARTESIAN_POINT ( 'NONE',  ( 3.499999999999999100, 0.0000000000000000000, 3.149999999999999900 ) ) ;
#121 = CARTESIAN_POINT ( 'NONE',  ( -2.500000000000000400, 0.0000000000000000000, 0.0000000000000000000 ) ) ;
#122 = EDGE_LOOP ( 'NONE', ( #110 ) ) ;
#123 = FILL_AREA_STYLE_COLOUR ( '', #34 ) ;
#124 = PRODUCT_DEFINITION_FORMATION_WITH_SPECIFIED_SOURCE ( 'ÈÎºÎ', '', #137, .NOT_KNOWN. ) ;
#125 =( NAMED_UNIT ( * ) PLANE_ANGLE_UNIT ( ) SI_UNIT ( $, .RADIAN. ) );
#126 = CARTESIAN_POINT ( 'NONE',  ( 3.499999999999999100, 0.0000000000000000000, 0.0000000000000000000 ) ) ;
#127 =( NAMED_UNIT ( * ) SI_UNIT ( $, .STERADIAN. ) SOLID_ANGLE_UNIT ( ) );
#128 = CIRCLE ( 'NONE', #150, 4.000000000000000000 ) ;
#129 = ORIENTED_EDGE ( 'NONE', *, *, #221, .F. ) ;
#130 = VERTEX_POINT ( 'NONE', #238 ) ;
#131 = AXIS2_PLACEMENT_3D ( 'NONE', #4, #185, #201 ) ;
#132 = ADVANCED_FACE ( 'NONE', ( #164, #5 ), #227, .F. ) ;
#133 = PRESENTATION_STYLE_ASSIGNMENT (( #1 ) ) ;
#134 = PRODUCT_RELATED_PRODUCT_CATEGORY ( 'part', '', ( #137 ) ) ;
#135 =( LENGTH_UNIT ( ) NAMED_UNIT ( * ) SI_UNIT ( .MILLI., .METRE. ) );
#136 = CARTESIAN_POINT ( 'NONE',  ( 3.499999999999999100, 0.0000000000000000000, 0.0000000000000000000 ) ) ;
#137 = PRODUCT ( 'Ë«×¶¿¨Ì×CB6', 'Ë«×¶¿¨Ì×CB6', '', ( #24 ) ) ;
#138 = CARTESIAN_POINT ( 'NONE',  ( 0.0000000000000000000, 0.0000000000000000000, 0.0000000000000000000 ) ) ;
#139 = PLANE ( 'NONE',  #131 ) ;
#140 = FILL_AREA_STYLE ('',( #245 ) ) ;
#141 = EDGE_LOOP ( 'NONE', ( #129 ) ) ;
#142 = PRESENTATION_STYLE_ASSIGNMENT (( #174 ) ) ;
#143 = EDGE_CURVE ( 'NONE', #23, #23, #116, .T. ) ;
#144 =( NAMED_UNIT ( * ) SI_UNIT ( $, .STERADIAN. ) SOLID_ANGLE_UNIT ( ) );
#145 = STYLED_ITEM ( 'NONE', ( #203 ), #166 ) ;
#146 = SURFACE_STYLE_FILL_AREA ( #31 ) ;
#147 = AXIS2_PLACEMENT_3D ( 'NONE', #88, #224, #225 ) ;
#148 = SURFACE_STYLE_FILL_AREA ( #140 ) ;
#149 =( NAMED_UNIT ( * ) SI_UNIT ( $, .STERADIAN. ) SOLID_ANGLE_UNIT ( ) );
#150 = AXIS2_PLACEMENT_3D ( 'NONE', #89, #43, #263 ) ;
#151 =( NAMED_UNIT ( * ) PLANE_ANGLE_UNIT ( ) SI_UNIT ( $, .RADIAN. ) );
#152 = SURFACE_SIDE_STYLE ('',( #96 ) ) ;
#153 =( NAMED_UNIT ( * ) SI_UNIT ( $, .STERADIAN. ) SOLID_ANGLE_UNIT ( ) );
#154 = EDGE_LOOP ( 'NONE', ( #118 ) ) ;
#155 = UNCERTAINTY_MEASURE_WITH_UNIT (LENGTH_MEASURE( 1.000000000000000100E-005 ), #216, 'distance_accuracy_value', 'NONE');
#156 = PLANE ( 'NONE',  #73 ) ;
#157 = ORIENTED_EDGE ( 'NONE', *, *, #188, .T. ) ;
#158 = COLOUR_RGB ( '',0.9647058823529411900, 0.7686274509803920900, 0.3725490196078431500 ) ;
#159 = DIRECTION ( 'NONE',  ( -1.000000000000000000, -0.0000000000000000000, -0.0000000000000000000 ) ) ;
#160 = DIRECTION ( 'NONE',  ( 0.0000000000000000000, 0.0000000000000000000, 1.000000000000000000 ) ) ;
#161 = DIRECTION ( 'NONE',  ( 0.0000000000000000000, 0.0000000000000000000, 1.000000000000000000 ) ) ;
#162 = EDGE_LOOP ( 'NONE', ( #257 ) ) ;
#163 = AXIS2_PLACEMENT_3D ( 'NONE', #69, #249, #161 ) ;
#164 = FACE_OUTER_BOUND ( 'NONE', #141, .T. ) ;
#165 = EDGE_LOOP ( 'NONE', ( #54 ) ) ;
#166 = ADVANCED_FACE ( 'NONE', ( #194, #75 ), #25, .T. ) ;
#167 = COLOUR_RGB ( '',0.9647058823529411900, 0.7686274509803920900, 0.3725490196078431500 ) ;
#168 = COLOUR_RGB ( '',0.9647058823529411900, 0.7686274509803920900, 0.3725490196078431500 ) ;
#169 = COLOUR_RGB ( '',0.7529411764705882200, 0.7529411764705882200, 0.7529411764705882200 ) ;
#170 = APPLICATION_PROTOCOL_DEFINITION ( 'draft international standard', 'automotive_design', 1998, #57 ) ;
#171 =( NAMED_UNIT ( * ) SI_UNIT ( $, .STERADIAN. ) SOLID_ANGLE_UNIT ( ) );
#172 = MECHANICAL_DESIGN_GEOMETRIC_PRESENTATION_REPRESENTATION (  '', ( #145 ), #187 ) ;
#173 = FACE_OUTER_BOUND ( 'NONE', #63, .T. ) ;
#174 = SURFACE_STYLE_USAGE ( .BOTH. , #152 ) ;
#175 = EDGE_CURVE ( 'NONE', #95, #95, #128, .T. ) ;
#176 = APPLICATION_PROTOCOL_DEFINITION ( 'draft international standard', 'automotive_design', 1998, #195 ) ;
#177 = SURFACE_STYLE_FILL_AREA ( #220 ) ;
#178 = DIRECTION ( 'NONE',  ( -1.000000000000000000, -0.0000000000000000000, -0.0000000000000000000 ) ) ;
#179 =( LENGTH_UNIT ( ) NAMED_UNIT ( * ) SI_UNIT ( .MILLI., .METRE. ) );
#180 =( GEOMETRIC_REPRESENTATION_CONTEXT ( 3 ) GLOBAL_UNCERTAINTY_ASSIGNED_CONTEXT ( ( #36 ) ) GLOBAL_UNIT_ASSIGNED_CONTEXT ( ( #179, #2, #204 ) ) REPRESENTATION_CONTEXT ( 'NONE', 'WORKASPACE' ) );
#181 = MANIFOLD_SOLID_BREP ( 'Ðý×ª1', #6 ) ;
#182 =( LENGTH_UNIT ( ) NAMED_UNIT ( * ) SI_UNIT ( .MILLI., .METRE. ) );
#183 = FACE_OUTER_BOUND ( 'NONE', #13, .T. ) ;
#184 = CARTESIAN_POINT ( 'NONE',  ( 3.499999999999999100, 3.149999999999999900, 0.0000000000000000000 ) ) ;
#185 = DIRECTION ( 'NONE',  ( 1.000000000000000000, 0.0000000000000000000, 0.0000000000000000000 ) ) ;
#186 = FILL_AREA_STYLE ('',( #91 ) ) ;
#187 =( GEOMETRIC_REPRESENTATION_CONTEXT ( 3 ) GLOBAL_UNCERTAINTY_ASSIGNED_CONTEXT ( ( #190 ) ) GLOBAL_UNIT_ASSIGNED_CONTEXT ( ( #228, #108, #205 ) ) REPRESENTATION_CONTEXT ( 'NONE', 'WORKASPACE' ) );
#188 = EDGE_CURVE ( 'NONE', #234, #234, #236, .T. ) ;
#189 = COLOUR_RGB ( '',0.7529411764705882200, 0.7529411764705882200, 0.7529411764705882200 ) ;
#190 = UNCERTAINTY_MEASURE_WITH_UNIT (LENGTH_MEASURE( 1.000000000000000100E-005 ), #228, 'distance_accuracy_value', 'NONE');
#191 = FACE_BOUND ( 'NONE', #113, .T. ) ;
#192 = FILL_AREA_STYLE ('',( #51 ) ) ;
#193 = DIRECTION ( 'NONE',  ( 0.0000000000000000000, 0.0000000000000000000, -1.000000000000000000 ) ) ;
#194 = FACE_OUTER_BOUND ( 'NONE', #165, .T. ) ;
#195 = APPLICATION_CONTEXT ( 'automotive_design' ) ;
#196 = PRESENTATION_LAYER_ASSIGNMENT (  '', '', ( #145 ) ) ;
#197 = FILL_AREA_STYLE_COLOUR ( '', #189 ) ;
#198 = DIRECTION ( 'NONE',  ( 0.0000000000000000000, 0.0000000000000000000, 1.000000000000000000 ) ) ;
#199 = SURFACE_STYLE_FILL_AREA ( #105 ) ;
#200 = ADVANCED_BREP_SHAPE_REPRESENTATION ( 'Ë«×¶¿¨Ì×CB6', ( #181, #81 ), #50 ) ;
#201 = DIRECTION ( 'NONE',  ( 0.0000000000000000000, 0.0000000000000000000, -1.000000000000000000 ) ) ;
#202 = AXIS2_PLACEMENT_3D ( 'NONE', #121, #59, #198 ) ;
#203 = PRESENTATION_STYLE_ASSIGNMENT (( #90 ) ) ;
#204 =( NAMED_UNIT ( * ) SI_UNIT ( $, .STERADIAN. ) SOLID_ANGLE_UNIT ( ) );
#205 =( NAMED_UNIT ( * ) SI_UNIT ( $, .STERADIAN. ) SOLID_ANGLE_UNIT ( ) );
#206 = CIRCLE ( 'NONE', #21, 4.000000000000000000 ) ;
#207 = FILL_AREA_STYLE ('',( #7 ) ) ;
#208 = EDGE_LOOP ( 'NONE', ( #114 ) ) ;
#209 =( GEOMETRIC_REPRESENTATION_CONTEXT ( 3 ) GLOBAL_UNCERTAINTY_ASSIGNED_CONTEXT ( ( #49 ) ) GLOBAL_UNIT_ASSIGNED_CONTEXT ( ( #182, #8, #127 ) ) REPRESENTATION_CONTEXT ( 'NONE', 'WORKASPACE' ) );
#210 = CIRCLE ( 'NONE', #211, 3.049999999999999800 ) ;
#211 = AXIS2_PLACEMENT_3D ( 'NONE', #136, #39, #237 ) ;
#212 = CONICAL_SURFACE ( 'NONE', #147, 3.149999999999999900, 0.5235987755982956000 ) ;
#213 =( LENGTH_UNIT ( ) NAMED_UNIT ( * ) SI_UNIT ( .MILLI., .METRE. ) );
#214 = EDGE_CURVE ( 'NONE', #48, #48, #231, .T. ) ;
#215 = EDGE_LOOP ( 'NONE', ( #58 ) ) ;
#216 =( LENGTH_UNIT ( ) NAMED_UNIT ( * ) SI_UNIT ( .MILLI., .METRE. ) );
#217 = SURFACE_STYLE_USAGE ( .BOTH. , #60 ) ;
#218 = UNCERTAINTY_MEASURE_WITH_UNIT (LENGTH_MEASURE( 1.000000000000000100E-005 ), #107, 'distance_accuracy_value', 'NONE');
#219 = STYLED_ITEM ( 'NONE', ( #260 ), #132 ) ;
#220 = FILL_AREA_STYLE ('',( #123 ) ) ;
#221 = EDGE_CURVE ( 'NONE', #77, #77, #210, .T. ) ;
#222 = ORIENTED_EDGE ( 'NONE', *, *, #175, .T. ) ;
#223 = SHAPE_DEFINITION_REPRESENTATION ( #82, #200 ) ;
#224 = DIRECTION ( 'NONE',  ( -1.000000000000000000, -0.0000000000000000000, -0.0000000000000000000 ) ) ;
#225 = DIRECTION ( 'NONE',  ( 0.0000000000000000000, 0.0000000000000000000, 1.000000000000000000 ) ) ;
#226 =( GEOMETRIC_REPRESENTATION_CONTEXT ( 3 ) GLOBAL_UNCERTAINTY_ASSIGNED_CONTEXT ( ( #93 ) ) GLOBAL_UNIT_ASSIGNED_CONTEXT ( ( #246, #125, #153 ) ) REPRESENTATION_CONTEXT ( 'NONE', 'WORKASPACE' ) );
#227 = CYLINDRICAL_SURFACE ( 'NONE', #256, 3.049999999999999800 ) ;
#228 =( LENGTH_UNIT ( ) NAMED_UNIT ( * ) SI_UNIT ( .MILLI., .METRE. ) );
#229 = SURFACE_SIDE_STYLE ('',( #233 ) ) ;
#230 = FACE_OUTER_BOUND ( 'NONE', #252, .T. ) ;
#231 = CIRCLE ( 'NONE', #202, 3.049999999999999800 ) ;
#232 = STYLED_ITEM ( 'NONE', ( #262 ), #35 ) ;
#233 = SURFACE_STYLE_FILL_AREA ( #186 ) ;
#234 = VERTEX_POINT ( 'NONE', #259 ) ;
#235 = STYLED_ITEM ( 'NONE', ( #133 ), #14 ) ;
#236 = CIRCLE ( 'NONE', #239, 3.149999999999999900 ) ;
#237 = DIRECTION ( 'NONE',  ( 0.0000000000000000000, 0.0000000000000000000, 1.000000000000000000 ) ) ;
#238 = CARTESIAN_POINT ( 'NONE',  ( 2.027756813566442300, 0.0000000000000000000, 4.000000000000000000 ) ) ;
#239 = AXIS2_PLACEMENT_3D ( 'NONE', #16, #178, #100 ) ;
#240 = DIRECTION ( 'NONE',  ( -1.000000000000000000, -0.0000000000000000000, -0.0000000000000000000 ) ) ;
#241 =( NAMED_UNIT ( * ) PLANE_ANGLE_UNIT ( ) SI_UNIT ( $, .RADIAN. ) );
#242 = STYLED_ITEM ( 'NONE', ( #142 ), #253 ) ;
#243 = FACE_BOUND ( 'NONE', #154, .T. ) ;
#244 = SURFACE_SIDE_STYLE ('',( #177 ) ) ;
#245 = FILL_AREA_STYLE_COLOUR ( '', #94 ) ;
#246 =( LENGTH_UNIT ( ) NAMED_UNIT ( * ) SI_UNIT ( .MILLI., .METRE. ) );
#247 = MECHANICAL_DESIGN_GEOMETRIC_PRESENTATION_REPRESENTATION (  '', ( #254 ), #209 ) ;
#248 = EDGE_CURVE ( 'NONE', #130, #130, #206, .T. ) ;
#249 = DIRECTION ( 'NONE',  ( -1.000000000000000000, -0.0000000000000000000, -0.0000000000000000000 ) ) ;
#250 = DIRECTION ( 'NONE',  ( 0.0000000000000000000, 0.0000000000000000000, 1.000000000000000000 ) ) ;
#251 = PRESENTATION_LAYER_ASSIGNMENT (  '', '', ( #242 ) ) ;
#252 = EDGE_LOOP ( 'NONE', ( #157 ) ) ;
#253 = ADVANCED_FACE ( 'NONE', ( #32, #173 ), #67, .T. ) ;
#254 = STYLED_ITEM ( 'NONE', ( #98 ), #97 ) ;
#255 = PRESENTATION_STYLE_ASSIGNMENT (( #41 ) ) ;
#256 = AXIS2_PLACEMENT_3D ( 'NONE', #109, #159, #160 ) ;
#257 = ORIENTED_EDGE ( 'NONE', *, *, #188, .F. ) ;
#258 = UNCERTAINTY_MEASURE_WITH_UNIT (LENGTH_MEASURE( 1.000000000000000100E-005 ), #213, 'distance_accuracy_value', 'NONE');
#259 = CARTESIAN_POINT ( 'NONE',  ( -2.500000000000000900, 0.0000000000000000000, 3.149999999999999900 ) ) ;
#260 = PRESENTATION_STYLE_ASSIGNMENT (( #11 ) ) ;
#261 = PRESENTATION_LAYER_ASSIGNMENT (  '', '', ( #219 ) ) ;
#262 = PRESENTATION_STYLE_ASSIGNMENT (( #66 ) ) ;
#263 = DIRECTION ( 'NONE',  ( 0.0000000000000000000, 0.0000000000000000000, 1.000000000000000000 ) ) ;
#264 = PRESENTATION_STYLE_ASSIGNMENT (( #217 ) ) ;
ENDSEC;
END-ISO-10303-21;
