ISO-10303-21;
HEADER;
FILE_DESCRIPTION (( 'STEP AP214' ),
    '1' );
FILE_NAME ('Ë«×¶¿¨CB4.STEP',
    '2018-12-18T01:02:40',
    ( '' ),
    ( '' ),
    'SwSTEP 2.0',
    'SolidWorks 2014',
    '' );
FILE_SCHEMA (( 'AUTOMOTIVE_DESIGN' ));
ENDSEC;

DATA;
#1 = ORIENTED_EDGE ( 'NONE', *, *, #128, .T. ) ;
#2 = PRESENTATION_STYLE_ASSIGNMENT (( #203 ) ) ;
#3 = CARTESIAN_POINT ( 'NONE',  ( 2.499999999999999600, 0.0000000000000000000, 2.149999999999999900 ) ) ;
#4 = DIRECTION ( 'NONE',  ( 0.0000000000000000000, 0.0000000000000000000, 1.000000000000000000 ) ) ;
#5 = DIRECTION ( 'NONE',  ( 0.0000000000000000000, 0.0000000000000000000, 1.000000000000000000 ) ) ;
#6 = DIRECTION ( 'NONE',  ( 0.0000000000000000000, 0.0000000000000000000, 1.000000000000000000 ) ) ;
#7 =( NAMED_UNIT ( * ) PLANE_ANGLE_UNIT ( ) SI_UNIT ( $, .RADIAN. ) );
#8 = AXIS2_PLACEMENT_3D ( 'NONE', #162, #184, #79 ) ;
#9 = MANIFOLD_SOLID_BREP ( 'Ðý×ª1', #169 ) ;
#10 = MECHANICAL_DESIGN_GEOMETRIC_PRESENTATION_REPRESENTATION (  '', ( #179 ), #22 ) ;
#11 = FILL_AREA_STYLE_COLOUR ( '', #146 ) ;
#12 = SURFACE_SIDE_STYLE ('',( #210 ) ) ;
#13 =( LENGTH_UNIT ( ) NAMED_UNIT ( * ) SI_UNIT ( .MILLI., .METRE. ) );
#14 = FILL_AREA_STYLE_COLOUR ( '', #236 ) ;
#15 = ORIENTED_EDGE ( 'NONE', *, *, #183, .F. ) ;
#16 = DIRECTION ( 'NONE',  ( -1.000000000000000000, -0.0000000000000000000, -0.0000000000000000000 ) ) ;
#17 = AXIS2_PLACEMENT_3D ( 'NONE', #27, #243, #30 ) ;
#18 = ORIENTED_EDGE ( 'NONE', *, *, #170, .T. ) ;
#19 = FACE_OUTER_BOUND ( 'NONE', #213, .T. ) ;
#20 = PRODUCT ( 'Ë«×¶¿¨CB4', 'Ë«×¶¿¨CB4', '', ( #150 ) ) ;
#21 = PRESENTATION_LAYER_ASSIGNMENT (  '', '', ( #127 ) ) ;
#22 =( GEOMETRIC_REPRESENTATION_CONTEXT ( 3 ) GLOBAL_UNCERTAINTY_ASSIGNED_CONTEXT ( ( #168 ) ) GLOBAL_UNIT_ASSIGNED_CONTEXT ( ( #205, #78, #248 ) ) REPRESENTATION_CONTEXT ( 'NONE', 'WORKASPACE' ) );
#23 = APPLICATION_CONTEXT ( 'automotive_design' ) ;
#24 = CARTESIAN_POINT ( 'NONE',  ( -1.027756813566464500, 0.0000000000000000000, 0.0000000000000000000 ) ) ;
#25 = CARTESIAN_POINT ( 'NONE',  ( 2.499999999999999600, 0.0000000000000000000, 2.049999999999999800 ) ) ;
#26 =( LENGTH_UNIT ( ) NAMED_UNIT ( * ) SI_UNIT ( .MILLI., .METRE. ) );
#27 = CARTESIAN_POINT ( 'NONE',  ( 0.0000000000000000000, 0.0000000000000000000, 0.0000000000000000000 ) ) ;
#28 = PRODUCT_RELATED_PRODUCT_CATEGORY ( 'part', '', ( #20 ) ) ;
#29 = DIRECTION ( 'NONE',  ( -1.000000000000000000, -0.0000000000000000000, -0.0000000000000000000 ) ) ;
#30 = DIRECTION ( 'NONE',  ( 1.000000000000000000, 0.0000000000000000000, 0.0000000000000000000 ) ) ;
#31 =( NAMED_UNIT ( * ) SI_UNIT ( $, .STERADIAN. ) SOLID_ANGLE_UNIT ( ) );
#32 = PLANE ( 'NONE',  #52 ) ;
#33 = MECHANICAL_DESIGN_GEOMETRIC_PRESENTATION_REPRESENTATION (  '', ( #127 ), #172 ) ;
#34 = CIRCLE ( 'NONE', #218, 2.149999999999999900 ) ;
#35 = CONICAL_SURFACE ( 'NONE', #230, 3.000000000000000000, 0.5235987755983019200 ) ;
#36 = COLOUR_RGB ( '',0.9647058823529411900, 0.7686274509803920900, 0.3725490196078431500 ) ;
#37 = MECHANICAL_DESIGN_GEOMETRIC_PRESENTATION_REPRESENTATION (  '', ( #231 ), #45 ) ;
#38 = MECHANICAL_DESIGN_GEOMETRIC_PRESENTATION_REPRESENTATION (  '', ( #190 ), #237 ) ;
#39 = STYLED_ITEM ( 'NONE', ( #57 ), #212 ) ;
#40 = FILL_AREA_STYLE_COLOUR ( '', #217 ) ;
#41 = APPLICATION_CONTEXT ( 'automotive_design' ) ;
#42 = SURFACE_STYLE_FILL_AREA ( #44 ) ;
#43 = SURFACE_STYLE_FILL_AREA ( #46 ) ;
#44 = FILL_AREA_STYLE ('',( #207 ) ) ;
#45 =( GEOMETRIC_REPRESENTATION_CONTEXT ( 3 ) GLOBAL_UNCERTAINTY_ASSIGNED_CONTEXT ( ( #262 ) ) GLOBAL_UNIT_ASSIGNED_CONTEXT ( ( #65, #234, #160 ) ) REPRESENTATION_CONTEXT ( 'NONE', 'WORKASPACE' ) );
#46 = FILL_AREA_STYLE ('',( #100 ) ) ;
#47 = SURFACE_STYLE_USAGE ( .BOTH. , #202 ) ;
#48 = CARTESIAN_POINT ( 'NONE',  ( -1.027756813566464500, 0.0000000000000000000, 0.0000000000000000000 ) ) ;
#49 = SURFACE_STYLE_USAGE ( .BOTH. , #12 ) ;
#50 =( NAMED_UNIT ( * ) PLANE_ANGLE_UNIT ( ) SI_UNIT ( $, .RADIAN. ) );
#51 = ORIENTED_EDGE ( 'NONE', *, *, #188, .F. ) ;
#52 = AXIS2_PLACEMENT_3D ( 'NONE', #252, #81, #99 ) ;
#53 = EDGE_LOOP ( 'NONE', ( #91 ) ) ;
#54 = EDGE_LOOP ( 'NONE', ( #238 ) ) ;
#55 = VERTEX_POINT ( 'NONE', #244 ) ;
#56 = PRESENTATION_LAYER_ASSIGNMENT (  '', '', ( #135 ) ) ;
#57 = PRESENTATION_STYLE_ASSIGNMENT (( #115 ) ) ;
#58 = UNCERTAINTY_MEASURE_WITH_UNIT (LENGTH_MEASURE( 1.000000000000000100E-005 ), #26, 'distance_accuracy_value', 'NONE');
#59 = EDGE_LOOP ( 'NONE', ( #173 ) ) ;
#60 = CARTESIAN_POINT ( 'NONE',  ( 1.027756813566442300, 0.0000000000000000000, 3.000000000000000000 ) ) ;
#61 = DIRECTION ( 'NONE',  ( 0.0000000000000000000, 0.0000000000000000000, 1.000000000000000000 ) ) ;
#62 = PRODUCT_DEFINITION_FORMATION_WITH_SPECIFIED_SOURCE ( 'ÈÎºÎ', '', #20, .NOT_KNOWN. ) ;
#63 = FILL_AREA_STYLE ('',( #221 ) ) ;
#64 = CONICAL_SURFACE ( 'NONE', #141, 2.149999999999999900, 0.5235987755982954800 ) ;
#65 =( LENGTH_UNIT ( ) NAMED_UNIT ( * ) SI_UNIT ( .MILLI., .METRE. ) );
#66 = ORIENTED_EDGE ( 'NONE', *, *, #188, .T. ) ;
#67 = FACE_OUTER_BOUND ( 'NONE', #163, .T. ) ;
#68 = PRESENTATION_STYLE_ASSIGNMENT (( #116 ) ) ;
#69 = ADVANCED_FACE ( 'NONE', ( #123, #264 ), #35, .T. ) ;
#70 =( GEOMETRIC_REPRESENTATION_CONTEXT ( 3 ) GLOBAL_UNCERTAINTY_ASSIGNED_CONTEXT ( ( #233 ) ) GLOBAL_UNIT_ASSIGNED_CONTEXT ( ( #176, #7, #224 ) ) REPRESENTATION_CONTEXT ( 'NONE', 'WORKASPACE' ) );
#71 = PRESENTATION_LAYER_ASSIGNMENT (  '', '', ( #190 ) ) ;
#72 = PRESENTATION_STYLE_ASSIGNMENT (( #47 ) ) ;
#73 = DIRECTION ( 'NONE',  ( 0.0000000000000000000, 0.0000000000000000000, 1.000000000000000000 ) ) ;
#74 = DIRECTION ( 'NONE',  ( 0.0000000000000000000, 0.0000000000000000000, 1.000000000000000000 ) ) ;
#75 = CARTESIAN_POINT ( 'NONE',  ( 2.499999999999999600, 0.0000000000000000000, 0.0000000000000000000 ) ) ;
#76 =( NAMED_UNIT ( * ) SI_UNIT ( $, .STERADIAN. ) SOLID_ANGLE_UNIT ( ) );
#77 = DIRECTION ( 'NONE',  ( -1.000000000000000000, -0.0000000000000000000, -0.0000000000000000000 ) ) ;
#78 =( NAMED_UNIT ( * ) PLANE_ANGLE_UNIT ( ) SI_UNIT ( $, .RADIAN. ) );
#79 = DIRECTION ( 'NONE',  ( -0.0000000000000000000, 0.0000000000000000000, 1.000000000000000000 ) ) ;
#80 = SURFACE_SIDE_STYLE ('',( #43 ) ) ;
#81 = DIRECTION ( 'NONE',  ( 1.000000000000000000, 0.0000000000000000000, 0.0000000000000000000 ) ) ;
#82 = UNCERTAINTY_MEASURE_WITH_UNIT (LENGTH_MEASURE( 1.000000000000000100E-005 ), #98, 'distance_accuracy_value', 'NONE');
#83 = FACE_BOUND ( 'NONE', #147, .T. ) ;
#84 = PLANE ( 'NONE',  #8 ) ;
#85 = PRESENTATION_LAYER_ASSIGNMENT (  '', '', ( #231 ) ) ;
#86 = ADVANCED_FACE ( 'NONE', ( #96, #117 ), #32, .F. ) ;
#87 = CIRCLE ( 'NONE', #88, 3.000000000000000000 ) ;
#88 = AXIS2_PLACEMENT_3D ( 'NONE', #24, #112, #92 ) ;
#89 = COLOUR_RGB ( '',0.7529411764705882200, 0.7529411764705882200, 0.7529411764705882200 ) ;
#90 = PRESENTATION_STYLE_ASSIGNMENT (( #49 ) ) ;
#91 = ORIENTED_EDGE ( 'NONE', *, *, #192, .T. ) ;
#92 = DIRECTION ( 'NONE',  ( 0.0000000000000000000, 0.0000000000000000000, 1.000000000000000000 ) ) ;
#93 = APPLICATION_PROTOCOL_DEFINITION ( 'draft international standard', 'automotive_design', 1998, #23 ) ;
#94 = CARTESIAN_POINT ( 'NONE',  ( 0.0000000000000000000, 0.0000000000000000000, 0.0000000000000000000 ) ) ;
#95 = AXIS2_PLACEMENT_3D ( 'NONE', #175, #134, #178 ) ;
#96 = FACE_BOUND ( 'NONE', #215, .T. ) ;
#97 = SURFACE_STYLE_USAGE ( .BOTH. , #250 ) ;
#98 =( LENGTH_UNIT ( ) NAMED_UNIT ( * ) SI_UNIT ( .MILLI., .METRE. ) );
#99 = DIRECTION ( 'NONE',  ( 0.0000000000000000000, 0.0000000000000000000, -1.000000000000000000 ) ) ;
#100 = FILL_AREA_STYLE_COLOUR ( '', #89 ) ;
#101 =( NAMED_UNIT ( * ) SI_UNIT ( $, .STERADIAN. ) SOLID_ANGLE_UNIT ( ) );
#102 = ORIENTED_EDGE ( 'NONE', *, *, #209, .F. ) ;
#103 = VERTEX_POINT ( 'NONE', #114 ) ;
#104 = ADVANCED_FACE ( 'NONE', ( #255, #143 ), #84, .F. ) ;
#105 = AXIS2_PLACEMENT_3D ( 'NONE', #226, #242, #61 ) ;
#106 = ORIENTED_EDGE ( 'NONE', *, *, #183, .T. ) ;
#107 = UNCERTAINTY_MEASURE_WITH_UNIT (LENGTH_MEASURE( 1.000000000000000100E-005 ), #185, 'distance_accuracy_value', 'NONE');
#108 = SHAPE_DEFINITION_REPRESENTATION ( #216, #189 ) ;
#109 = SURFACE_STYLE_FILL_AREA ( #137 ) ;
#110 = MECHANICAL_DESIGN_GEOMETRIC_PRESENTATION_REPRESENTATION (  '', ( #240 ), #239 ) ;
#111 = VERTEX_POINT ( 'NONE', #25 ) ;
#112 = DIRECTION ( 'NONE',  ( -1.000000000000000000, -0.0000000000000000000, -0.0000000000000000000 ) ) ;
#113 = DIRECTION ( 'NONE',  ( -1.000000000000000000, -0.0000000000000000000, -0.0000000000000000000 ) ) ;
#114 = CARTESIAN_POINT ( 'NONE',  ( -2.500000000000000000, 0.0000000000000000000, 2.149999999999999900 ) ) ;
#115 = SURFACE_STYLE_USAGE ( .BOTH. , #131 ) ;
#116 = SURFACE_STYLE_USAGE ( .BOTH. , #227 ) ;
#117 = FACE_OUTER_BOUND ( 'NONE', #144, .T. ) ;
#118 =( GEOMETRIC_REPRESENTATION_CONTEXT ( 3 ) GLOBAL_UNCERTAINTY_ASSIGNED_CONTEXT ( ( #82 ) ) GLOBAL_UNIT_ASSIGNED_CONTEXT ( ( #98, #136, #194 ) ) REPRESENTATION_CONTEXT ( 'NONE', 'WORKASPACE' ) );
#119 = SURFACE_SIDE_STYLE ('',( #109 ) ) ;
#120 = SURFACE_STYLE_USAGE ( .BOTH. , #80 ) ;
#121 = CARTESIAN_POINT ( 'NONE',  ( 0.0000000000000000000, 0.0000000000000000000, 0.0000000000000000000 ) ) ;
#122 = COLOUR_RGB ( '',0.9647058823529411900, 0.7686274509803920900, 0.3725490196078431500 ) ;
#123 = FACE_BOUND ( 'NONE', #196, .T. ) ;
#124 = PRESENTATION_STYLE_ASSIGNMENT (( #97 ) ) ;
#125 = ADVANCED_FACE ( 'NONE', ( #67, #19 ), #191, .T. ) ;
#126 = SURFACE_STYLE_FILL_AREA ( #63 ) ;
#127 = STYLED_ITEM ( 'NONE', ( #72 ), #104 ) ;
#128 = EDGE_CURVE ( 'NONE', #156, #156, #34, .T. ) ;
#129 = MECHANICAL_DESIGN_GEOMETRIC_PRESENTATION_REPRESENTATION (  '', ( #39 ), #260 ) ;
#130 = CYLINDRICAL_SURFACE ( 'NONE', #204, 2.049999999999999800 ) ;
#131 = SURFACE_SIDE_STYLE ('',( #126 ) ) ;
#132 = CARTESIAN_POINT ( 'NONE',  ( -1.027756813566464500, 0.0000000000000000000, 3.000000000000000000 ) ) ;
#133 = APPLICATION_PROTOCOL_DEFINITION ( 'draft international standard', 'automotive_design', 1998, #41 ) ;
#134 = DIRECTION ( 'NONE',  ( -1.000000000000000000, -0.0000000000000000000, -0.0000000000000000000 ) ) ;
#135 = STYLED_ITEM ( 'NONE', ( #68 ), #189 ) ;
#136 =( NAMED_UNIT ( * ) PLANE_ANGLE_UNIT ( ) SI_UNIT ( $, .RADIAN. ) );
#137 = FILL_AREA_STYLE ('',( #249 ) ) ;
#138 = FILL_AREA_STYLE ('',( #14 ) ) ;
#139 = DIRECTION ( 'NONE',  ( 0.0000000000000000000, 0.0000000000000000000, 1.000000000000000000 ) ) ;
#140 =( LENGTH_UNIT ( ) NAMED_UNIT ( * ) SI_UNIT ( .MILLI., .METRE. ) );
#141 = AXIS2_PLACEMENT_3D ( 'NONE', #75, #113, #5 ) ;
#142 = FACE_OUTER_BOUND ( 'NONE', #59, .T. ) ;
#143 = FACE_BOUND ( 'NONE', #53, .T. ) ;
#144 = EDGE_LOOP ( 'NONE', ( #18 ) ) ;
#145 = PRODUCT_DEFINITION ( 'Î´Öª', '', #62, #228 ) ;
#146 = COLOUR_RGB ( '',0.9647058823529411900, 0.7686274509803920900, 0.3725490196078431500 ) ;
#147 = EDGE_LOOP ( 'NONE', ( #1 ) ) ;
#148 = DIRECTION ( 'NONE',  ( -1.000000000000000000, -0.0000000000000000000, -0.0000000000000000000 ) ) ;
#149 = CIRCLE ( 'NONE', #95, 2.049999999999999800 ) ;
#150 = PRODUCT_CONTEXT ( 'NONE', #23, 'mechanical' ) ;
#151 = UNCERTAINTY_MEASURE_WITH_UNIT (LENGTH_MEASURE( 1.000000000000000100E-005 ), #13, 'distance_accuracy_value', 'NONE');
#152 =( NAMED_UNIT ( * ) PLANE_ANGLE_UNIT ( ) SI_UNIT ( $, .RADIAN. ) );
#153 =( NAMED_UNIT ( * ) PLANE_ANGLE_UNIT ( ) SI_UNIT ( $, .RADIAN. ) );
#154 = MECHANICAL_DESIGN_GEOMETRIC_PRESENTATION_REPRESENTATION (  '', ( #135 ), #70 ) ;
#155 = CARTESIAN_POINT ( 'NONE',  ( -2.500000000000000400, 0.0000000000000000000, 0.0000000000000000000 ) ) ;
#156 = VERTEX_POINT ( 'NONE', #3 ) ;
#157 = DIRECTION ( 'NONE',  ( -1.000000000000000000, -0.0000000000000000000, -0.0000000000000000000 ) ) ;
#158 = EDGE_LOOP ( 'NONE', ( #106 ) ) ;
#159 = VERTEX_POINT ( 'NONE', #60 ) ;
#160 =( NAMED_UNIT ( * ) SI_UNIT ( $, .STERADIAN. ) SOLID_ANGLE_UNIT ( ) );
#161 =( NAMED_UNIT ( * ) SI_UNIT ( $, .STERADIAN. ) SOLID_ANGLE_UNIT ( ) );
#162 = CARTESIAN_POINT ( 'NONE',  ( 2.499999999999999600, 2.149999999999999900, 0.0000000000000000000 ) ) ;
#163 = EDGE_LOOP ( 'NONE', ( #102 ) ) ;
#164 = FILL_AREA_STYLE ('',( #11 ) ) ;
#165 = SURFACE_STYLE_FILL_AREA ( #246 ) ;
#166 = COLOUR_RGB ( '',0.9647058823529411900, 0.7686274509803920900, 0.3725490196078431500 ) ;
#167 = PRESENTATION_LAYER_ASSIGNMENT (  '', '', ( #179 ) ) ;
#168 = UNCERTAINTY_MEASURE_WITH_UNIT (LENGTH_MEASURE( 1.000000000000000100E-005 ), #205, 'distance_accuracy_value', 'NONE');
#169 = CLOSED_SHELL ( 'NONE', ( #256, #104, #212, #86, #69, #125 ) ) ;
#170 = EDGE_CURVE ( 'NONE', #103, #103, #214, .T. ) ;
#171 = CARTESIAN_POINT ( 'NONE',  ( 2.499999999999999600, 0.0000000000000000000, 0.0000000000000000000 ) ) ;
#172 =( GEOMETRIC_REPRESENTATION_CONTEXT ( 3 ) GLOBAL_UNCERTAINTY_ASSIGNED_CONTEXT ( ( #107 ) ) GLOBAL_UNIT_ASSIGNED_CONTEXT ( ( #185, #182, #31 ) ) REPRESENTATION_CONTEXT ( 'NONE', 'WORKASPACE' ) );
#173 = ORIENTED_EDGE ( 'NONE', *, *, #192, .F. ) ;
#174 = UNCERTAINTY_MEASURE_WITH_UNIT (LENGTH_MEASURE( 1.000000000000000100E-005 ), #140, 'distance_accuracy_value', 'NONE');
#175 = CARTESIAN_POINT ( 'NONE',  ( 2.499999999999999600, 0.0000000000000000000, 0.0000000000000000000 ) ) ;
#176 =( LENGTH_UNIT ( ) NAMED_UNIT ( * ) SI_UNIT ( .MILLI., .METRE. ) );
#177 = FILL_AREA_STYLE ('',( #223 ) ) ;
#178 = DIRECTION ( 'NONE',  ( 0.0000000000000000000, 0.0000000000000000000, 1.000000000000000000 ) ) ;
#179 = STYLED_ITEM ( 'NONE', ( #124 ), #69 ) ;
#180 = SURFACE_STYLE_FILL_AREA ( #164 ) ;
#181 = DIRECTION ( 'NONE',  ( 1.000000000000000000, 0.0000000000000000000, 0.0000000000000000000 ) ) ;
#182 =( NAMED_UNIT ( * ) PLANE_ANGLE_UNIT ( ) SI_UNIT ( $, .RADIAN. ) );
#183 = EDGE_CURVE ( 'NONE', #55, #55, #199, .T. ) ;
#184 = DIRECTION ( 'NONE',  ( -1.000000000000000000, 0.0000000000000000000, -0.0000000000000000000 ) ) ;
#185 =( LENGTH_UNIT ( ) NAMED_UNIT ( * ) SI_UNIT ( .MILLI., .METRE. ) );
#186 = COLOUR_RGB ( '',0.9647058823529411900, 0.7686274509803920900, 0.3725490196078431500 ) ;
#187 = AXIS2_PLACEMENT_3D ( 'NONE', #197, #157, #4 ) ;
#188 = EDGE_CURVE ( 'NONE', #159, #159, #261, .T. ) ;
#189 = ADVANCED_BREP_SHAPE_REPRESENTATION ( 'Ë«×¶¿¨CB4', ( #9, #17 ), #220 ) ;
#190 = STYLED_ITEM ( 'NONE', ( #259 ), #9 ) ;
#191 = CYLINDRICAL_SURFACE ( 'NONE', #241, 3.000000000000000000 ) ;
#192 = EDGE_CURVE ( 'NONE', #111, #111, #149, .T. ) ;
#193 = AXIS2_PLACEMENT_3D ( 'NONE', #155, #29, #6 ) ;
#194 =( NAMED_UNIT ( * ) SI_UNIT ( $, .STERADIAN. ) SOLID_ANGLE_UNIT ( ) );
#195 = STYLED_ITEM ( 'NONE', ( #90 ), #256 ) ;
#196 = EDGE_LOOP ( 'NONE', ( #263 ) ) ;
#197 = CARTESIAN_POINT ( 'NONE',  ( -2.500000000000000000, 0.0000000000000000000, 0.0000000000000000000 ) ) ;
#198 =( LENGTH_UNIT ( ) NAMED_UNIT ( * ) SI_UNIT ( .MILLI., .METRE. ) );
#199 = CIRCLE ( 'NONE', #193, 2.049999999999999800 ) ;
#200 = EDGE_LOOP ( 'NONE', ( #222 ) ) ;
#201 = DIRECTION ( 'NONE',  ( 0.0000000000000000000, 0.0000000000000000000, -1.000000000000000000 ) ) ;
#202 = SURFACE_SIDE_STYLE ('',( #42 ) ) ;
#203 = SURFACE_STYLE_USAGE ( .BOTH. , #119 ) ;
#204 = AXIS2_PLACEMENT_3D ( 'NONE', #94, #77, #74 ) ;
#205 =( LENGTH_UNIT ( ) NAMED_UNIT ( * ) SI_UNIT ( .MILLI., .METRE. ) );
#206 = UNCERTAINTY_MEASURE_WITH_UNIT (LENGTH_MEASURE( 1.000000000000000100E-005 ), #198, 'distance_accuracy_value', 'NONE');
#207 = FILL_AREA_STYLE_COLOUR ( '', #36 ) ;
#208 = EDGE_LOOP ( 'NONE', ( #51 ) ) ;
#209 = EDGE_CURVE ( 'NONE', #247, #247, #87, .T. ) ;
#210 = SURFACE_STYLE_FILL_AREA ( #177 ) ;
#211 = PRESENTATION_LAYER_ASSIGNMENT (  '', '', ( #240 ) ) ;
#212 = ADVANCED_FACE ( 'NONE', ( #142, #225 ), #130, .F. ) ;
#213 = EDGE_LOOP ( 'NONE', ( #66 ) ) ;
#214 = CIRCLE ( 'NONE', #187, 2.149999999999999900 ) ;
#215 = EDGE_LOOP ( 'NONE', ( #15 ) ) ;
#216 = PRODUCT_DEFINITION_SHAPE ( 'NONE', 'NONE',  #145 ) ;
#217 = COLOUR_RGB ( '',0.7529411764705882200, 0.7529411764705882200, 0.7529411764705882200 ) ;
#218 = AXIS2_PLACEMENT_3D ( 'NONE', #171, #148, #73 ) ;
#219 = SURFACE_STYLE_FILL_AREA ( #138 ) ;
#220 =( GEOMETRIC_REPRESENTATION_CONTEXT ( 3 ) GLOBAL_UNCERTAINTY_ASSIGNED_CONTEXT ( ( #206 ) ) GLOBAL_UNIT_ASSIGNED_CONTEXT ( ( #198, #153, #76 ) ) REPRESENTATION_CONTEXT ( 'NONE', 'WORKASPACE' ) );
#221 = FILL_AREA_STYLE_COLOUR ( '', #186 ) ;
#222 = ORIENTED_EDGE ( 'NONE', *, *, #128, .F. ) ;
#223 = FILL_AREA_STYLE_COLOUR ( '', #122 ) ;
#224 =( NAMED_UNIT ( * ) SI_UNIT ( $, .STERADIAN. ) SOLID_ANGLE_UNIT ( ) );
#225 = FACE_OUTER_BOUND ( 'NONE', #158, .T. ) ;
#226 = CARTESIAN_POINT ( 'NONE',  ( 1.027756813566442300, 0.0000000000000000000, 0.0000000000000000000 ) ) ;
#227 = SURFACE_SIDE_STYLE ('',( #165 ) ) ;
#228 = PRODUCT_DEFINITION_CONTEXT ( 'detailed design', #41, 'design' ) ;
#229 =( NAMED_UNIT ( * ) SI_UNIT ( $, .STERADIAN. ) SOLID_ANGLE_UNIT ( ) );
#230 = AXIS2_PLACEMENT_3D ( 'NONE', #48, #181, #201 ) ;
#231 = STYLED_ITEM ( 'NONE', ( #257 ), #86 ) ;
#232 = SURFACE_STYLE_USAGE ( .BOTH. , #251 ) ;
#233 = UNCERTAINTY_MEASURE_WITH_UNIT (LENGTH_MEASURE( 1.000000000000000100E-005 ), #176, 'distance_accuracy_value', 'NONE');
#234 =( NAMED_UNIT ( * ) PLANE_ANGLE_UNIT ( ) SI_UNIT ( $, .RADIAN. ) );
#235 =( NAMED_UNIT ( * ) PLANE_ANGLE_UNIT ( ) SI_UNIT ( $, .RADIAN. ) );
#236 = COLOUR_RGB ( '',0.9647058823529411900, 0.7686274509803920900, 0.3725490196078431500 ) ;
#237 =( GEOMETRIC_REPRESENTATION_CONTEXT ( 3 ) GLOBAL_UNCERTAINTY_ASSIGNED_CONTEXT ( ( #174 ) ) GLOBAL_UNIT_ASSIGNED_CONTEXT ( ( #140, #50, #161 ) ) REPRESENTATION_CONTEXT ( 'NONE', 'WORKASPACE' ) );
#238 = ORIENTED_EDGE ( 'NONE', *, *, #209, .T. ) ;
#239 =( GEOMETRIC_REPRESENTATION_CONTEXT ( 3 ) GLOBAL_UNCERTAINTY_ASSIGNED_CONTEXT ( ( #151 ) ) GLOBAL_UNIT_ASSIGNED_CONTEXT ( ( #13, #235, #101 ) ) REPRESENTATION_CONTEXT ( 'NONE', 'WORKASPACE' ) );
#240 = STYLED_ITEM ( 'NONE', ( #2 ), #125 ) ;
#241 = AXIS2_PLACEMENT_3D ( 'NONE', #121, #16, #139 ) ;
#242 = DIRECTION ( 'NONE',  ( -1.000000000000000000, -0.0000000000000000000, -0.0000000000000000000 ) ) ;
#243 = DIRECTION ( 'NONE',  ( 0.0000000000000000000, 0.0000000000000000000, 1.000000000000000000 ) ) ;
#244 = CARTESIAN_POINT ( 'NONE',  ( -2.500000000000000400, 0.0000000000000000000, 2.049999999999999800 ) ) ;
#245 = PRESENTATION_LAYER_ASSIGNMENT (  '', '', ( #195 ) ) ;
#246 = FILL_AREA_STYLE ('',( #40 ) ) ;
#247 = VERTEX_POINT ( 'NONE', #132 ) ;
#248 =( NAMED_UNIT ( * ) SI_UNIT ( $, .STERADIAN. ) SOLID_ANGLE_UNIT ( ) );
#249 = FILL_AREA_STYLE_COLOUR ( '', #166 ) ;
#250 = SURFACE_SIDE_STYLE ('',( #219 ) ) ;
#251 = SURFACE_SIDE_STYLE ('',( #180 ) ) ;
#252 = CARTESIAN_POINT ( 'NONE',  ( -2.500000000000000400, 2.149999999999999900, 0.0000000000000000000 ) ) ;
#253 = PRESENTATION_LAYER_ASSIGNMENT (  '', '', ( #39 ) ) ;
#254 = FACE_OUTER_BOUND ( 'NONE', #208, .T. ) ;
#255 = FACE_OUTER_BOUND ( 'NONE', #200, .T. ) ;
#256 = ADVANCED_FACE ( 'NONE', ( #254, #83 ), #64, .T. ) ;
#257 = PRESENTATION_STYLE_ASSIGNMENT (( #232 ) ) ;
#258 = MECHANICAL_DESIGN_GEOMETRIC_PRESENTATION_REPRESENTATION (  '', ( #195 ), #118 ) ;
#259 = PRESENTATION_STYLE_ASSIGNMENT (( #120 ) ) ;
#260 =( GEOMETRIC_REPRESENTATION_CONTEXT ( 3 ) GLOBAL_UNCERTAINTY_ASSIGNED_CONTEXT ( ( #58 ) ) GLOBAL_UNIT_ASSIGNED_CONTEXT ( ( #26, #152, #229 ) ) REPRESENTATION_CONTEXT ( 'NONE', 'WORKASPACE' ) );
#261 = CIRCLE ( 'NONE', #105, 3.000000000000000000 ) ;
#262 = UNCERTAINTY_MEASURE_WITH_UNIT (LENGTH_MEASURE( 1.000000000000000100E-005 ), #65, 'distance_accuracy_value', 'NONE');
#263 = ORIENTED_EDGE ( 'NONE', *, *, #170, .F. ) ;
#264 = FACE_OUTER_BOUND ( 'NONE', #54, .T. ) ;
ENDSEC;
END-ISO-10303-21;
